  0
SECTION
  2
BLOCKS
  0
ENDSEC
  0
SECTION
  2
ENTITIES
  0
LINE
  8
0
 10
-73.7202
 20
-73.6892
 11
-73.4887
 21
-75.9336
  0
LINE
  8
0
 10
-73.4887
 20
-75.9336
 11
-73.1559
 21
-79.1617
  0
LINE
  8
0
 10
-73.1559
 20
-79.1617
 11
-73.0979
 21
-79.2094
  0
LINE
  8
0
 10
-73.0979
 20
-79.2094
 11
-73.0785
 21
-79.2253
  0
LINE
  8
0
 10
-73.0785
 20
-79.2253
 11
-73.0785
 21
-79.2253
  0
LINE
  8
0
 10
-73.0785
 20
-79.2253
 11
-63.7044
 21
-86.9237
  0
LINE
  8
0
 10
-63.7044
 20
-86.9237
 11
-59.7103
 21
-90.2038
  0
LINE
  8
0
 10
-59.7103
 20
-90.2038
 11
-59.6856
 21
-90.2241
  0
LINE
  8
0
 10
-59.6856
 20
-90.2241
 11
-57.9985
 21
-91.0479
  0
LINE
  8
0
 10
-57.9985
 20
-91.0479
 11
-54.8055
 21
-91.3987
  0
LINE
  8
0
 10
-54.8055
 20
-91.3987
 11
-41.4608
 21
-103.198
  0
LINE
  8
0
 10
-41.4608
 20
-103.198
 11
-39.6901
 21
-103.189
  0
LINE
  8
0
 10
-39.6901
 20
-103.189
 11
-34.153
 21
-103.163
  0
LINE
  8
0
 10
-34.153
 20
-103.163
 11
-34.0876
 21
-103.121
  0
LINE
  8
0
 10
-34.0876
 20
-103.121
 11
-34.0452
 21
-103.094
  0
LINE
  8
0
 10
-34.0452
 20
-103.094
 11
-34.0452
 21
-103.094
  0
LINE
  8
0
 10
-34.0452
 20
-103.094
 11
-30.3169
 21
-100.704
  0
LINE
  8
0
 10
-30.3169
 20
-100.704
 11
-26.1923
 21
-98.0603
  0
LINE
  8
0
 10
-26.1923
 20
-98.0603
 11
-24.247
 21
-96.1065
  0
LINE
  8
0
 10
-24.247
 20
-96.1065
 11
-21.7809
 21
-93.6298
  0
LINE
  8
0
 10
-21.7809
 20
-93.6298
 11
-21.1617
 21
-92.7775
  0
LINE
  8
0
 10
-21.1617
 20
-92.7775
 11
-19.3985
 21
-90.3507
  0
LINE
  8
0
 10
-19.3985
 20
-90.3507
 11
-20.3871
 21
-86.5039
  0
LINE
  8
0
 10
-20.3871
 20
-86.5039
 11
-20.6661
 21
-85.4182
  0
LINE
  8
0
 10
-20.6661
 20
-85.4182
 11
-20.6661
 21
-85.4182
  0
LINE
  8
0
 10
-20.6661
 20
-85.4182
 11
-16.3821
 21
-80.6603
  0
LINE
  8
0
 10
-16.3821
 20
-80.6603
 11
-11.466
 21
-75.2005
  0
LINE
  8
0
 10
-11.466
 20
-75.2005
 11
-8.78252
 21
-73.4101
  0
LINE
  8
0
 10
-8.78252
 20
-73.4101
 11
-1.78294
 21
-68.7404
  0
LINE
  8
0
 10
-1.78294
 20
-68.7404
 11
-1.03895
 21
-69.6733
  0
LINE
  8
0
 10
-1.03895
 20
-69.6733
 11
0.634983
 21
-70.4794
  0
LINE
  8
0
 10
0.634983
 20
-70.4794
 11
0.666379
 21
-70.4945
  0
LINE
  8
0
 10
0.666379
 20
-70.4945
 11
2.55915
 21
-70.4945
  0
LINE
  8
0
 10
2.55915
 20
-70.4945
 11
2.59055
 21
-70.4794
  0
LINE
  8
0
 10
2.59055
 20
-70.4794
 11
4.26448
 21
-69.6733
  0
LINE
  8
0
 10
4.26448
 20
-69.6733
 11
5.42287
 21
-68.2207
  0
LINE
  8
0
 10
5.42287
 20
-68.2207
 11
5.4446
 21
-68.1935
  0
LINE
  8
0
 10
5.4446
 20
-68.1935
 11
5.45236
 21
-68.1595
  0
LINE
  8
0
 10
5.45236
 20
-68.1595
 11
5.86578
 21
-66.3481
  0
LINE
  8
0
 10
5.86578
 20
-66.3481
 11
5.80233
 21
-66.0702
  0
LINE
  8
0
 10
5.80233
 20
-66.0702
 11
13.5922
 21
-64.4386
  0
LINE
  8
0
 10
13.5922
 20
-64.4386
 11
21.4072
 21
-64.4386
  0
LINE
  8
0
 10
21.4072
 20
-64.4386
 11
21.4506
 21
-64.4386
  0
LINE
  8
0
 10
21.4506
 20
-64.4386
 11
34.0762
 21
-64.4386
  0
LINE
  8
0
 10
34.0762
 20
-64.4386
 11
38.4969
 21
-57.7181
  0
LINE
  8
0
 10
38.4969
 20
-57.7181
 11
41.283
 21
-53.4828
  0
LINE
  8
0
 10
41.283
 20
-53.4828
 11
44.9281
 21
-53.4828
  0
LINE
  8
0
 10
44.9281
 20
-53.4828
 11
51.5058
 21
-53.4828
  0
LINE
  8
0
 10
51.5058
 20
-53.4828
 11
54.3719
 21
-53.4828
  0
LINE
  8
0
 10
54.3719
 20
-53.4828
 11
73.5211
 21
-53.4828
  0
LINE
  8
0
 10
73.5211
 20
-53.4828
 11
78.4574
 21
-48.7147
  0
LINE
  8
0
 10
78.4574
 20
-48.7147
 11
80.5211
 21
-46.7213
  0
LINE
  8
0
 10
80.5211
 20
-46.7213
 11
80.5211
 21
-46.6531
  0
LINE
  8
0
 10
80.5211
 20
-46.6531
 11
80.5211
 21
-46.6531
  0
LINE
  8
0
 10
80.5211
 20
-46.6531
 11
80.5211
 21
-30.9621
  0
LINE
  8
0
 10
80.5211
 20
-30.9621
 11
80.5211
 21
-15.639
  0
LINE
  8
0
 10
80.5211
 20
-15.639
 11
81.1728
 21
-15.3251
  0
LINE
  8
0
 10
81.1728
 20
-15.3251
 11
82.3312
 21
-13.8726
  0
LINE
  8
0
 10
82.3312
 20
-13.8726
 11
82.353
 21
-13.8453
  0
LINE
  8
0
 10
82.353
 20
-13.8453
 11
82.3607
 21
-13.8113
  0
LINE
  8
0
 10
82.3607
 20
-13.8113
 11
82.7741
 21
-12
  0
LINE
  8
0
 10
82.7741
 20
-12
 11
82.3607
 21
-10.1887
  0
LINE
  8
0
 10
82.3607
 20
-10.1887
 11
82.353
 21
-10.1547
  0
LINE
  8
0
 10
82.353
 20
-10.1547
 11
82.3312
 21
-10.1274
  0
LINE
  8
0
 10
82.3312
 20
-10.1274
 11
81.1728
 21
-8.67486
  0
LINE
  8
0
 10
81.1728
 20
-8.67486
 11
80.5211
 21
-8.36101
  0
LINE
  8
0
 10
80.5211
 20
-8.36101
 11
80.5211
 21
6.96211
  0
LINE
  8
0
 10
80.5211
 20
6.96211
 11
80.5211
 21
22.6531
  0
LINE
  8
0
 10
80.5211
 20
22.6531
 11
80.5211
 21
22.6531
  0
LINE
  8
0
 10
80.5211
 20
22.6531
 11
80.5211
 21
22.7213
  0
LINE
  8
0
 10
80.5211
 20
22.7213
 11
78.4574
 21
24.7147
  0
LINE
  8
0
 10
78.4574
 20
24.7147
 11
73.5211
 21
29.4828
  0
LINE
  8
0
 10
73.5211
 20
29.4828
 11
54.3719
 21
29.4828
  0
LINE
  8
0
 10
54.3719
 20
29.4828
 11
51.5058
 21
29.4828
  0
LINE
  8
0
 10
51.5058
 20
29.4828
 11
44.9281
 21
29.4828
  0
LINE
  8
0
 10
44.9281
 20
29.4828
 11
34.3097
 21
29.4828
  0
LINE
  8
0
 10
34.3097
 20
29.4828
 11
30.8989
 21
36.3443
  0
LINE
  8
0
 10
30.8989
 20
36.3443
 11
28.7949
 21
40.5769
  0
LINE
  8
0
 10
28.7949
 20
40.5769
 11
28.5709
 21
40.9225
  0
LINE
  8
0
 10
28.5709
 20
40.9225
 11
28.2078
 21
41.4828
  0
LINE
  8
0
 10
28.2078
 20
41.4828
 11
24.3843
 21
41.4828
  0
LINE
  8
0
 10
24.3843
 20
41.4828
 11
24.2901
 21
41.4828
  0
LINE
  8
0
 10
24.2901
 20
41.4828
 11
23.3079
 21
41.4828
  0
LINE
  8
0
 10
23.3079
 20
41.4828
 11
23.3059
 21
41.4917
  0
LINE
  8
0
 10
23.3059
 20
41.4917
 11
23.2981
 21
41.5256
  0
LINE
  8
0
 10
23.2981
 20
41.5256
 11
23.2764
 21
41.5529
  0
LINE
  8
0
 10
23.2764
 20
41.5529
 11
22.118
 21
43.0055
  0
LINE
  8
0
 10
22.118
 20
43.0055
 11
20.444
 21
43.8116
  0
LINE
  8
0
 10
20.444
 20
43.8116
 11
20.4126
 21
43.8267
  0
LINE
  8
0
 10
20.4126
 20
43.8267
 11
18.5199
 21
43.8267
  0
LINE
  8
0
 10
18.5199
 20
43.8267
 11
18.4885
 21
43.8116
  0
LINE
  8
0
 10
18.4885
 20
43.8116
 11
16.8145
 21
43.0055
  0
LINE
  8
0
 10
16.8145
 20
43.0055
 11
15.6562
 21
41.5529
  0
LINE
  8
0
 10
15.6562
 20
41.5529
 11
15.6344
 21
41.5256
  0
LINE
  8
0
 10
15.6344
 20
41.5256
 11
15.6267
 21
41.4917
  0
LINE
  8
0
 10
15.6267
 20
41.4917
 11
15.6246
 21
41.4828
  0
LINE
  8
0
 10
15.6246
 20
41.4828
 11
11.1707
 21
41.4828
  0
LINE
  8
0
 10
11.1707
 20
41.4828
 11
6.59706
 21
43.7312
  0
LINE
  8
0
 10
6.59706
 20
43.7312
 11
5.43445
 21
44.3028
  0
LINE
  8
0
 10
5.43445
 20
44.3028
 11
2.028
 21
44.3028
  0
LINE
  8
0
 10
2.028
 20
44.3028
 11
1.92382
 21
44.3028
  0
LINE
  8
0
 10
1.92382
 20
44.3028
 11
-11.3727
 21
44.3028
  0
LINE
  8
0
 10
-11.3727
 20
44.3028
 11
-12.7311
 21
43.1415
  0
LINE
  8
0
 10
-12.7311
 20
43.1415
 11
-14.6715
 21
41.4828
  0
LINE
  8
0
 10
-14.6715
 20
41.4828
 11
-23.7153
 21
41.4828
  0
LINE
  8
0
 10
-23.7153
 20
41.4828
 11
-23.7675
 21
41.4828
  0
LINE
  8
0
 10
-23.7675
 20
41.4828
 11
-30.8953
 21
41.4828
  0
LINE
  8
0
 10
-30.8953
 20
41.4828
 11
-33.7032
 21
41.4828
  0
LINE
  8
0
 10
-33.7032
 20
41.4828
 11
-33.738
 21
41.4828
  0
LINE
  8
0
 10
-33.738
 20
41.4828
 11
-35.2218
 21
41.4828
  0
LINE
  8
0
 10
-35.2218
 20
41.4828
 11
-45.7258
 21
41.4828
  0
LINE
  8
0
 10
-45.7258
 20
41.4828
 11
-50.9067
 21
41.4828
  0
LINE
  8
0
 10
-50.9067
 20
41.4828
 11
-50.9309
 21
41.4828
  0
LINE
  8
0
 10
-50.9309
 20
41.4828
 11
-54.5243
 21
38.9403
  0
LINE
  8
0
 10
-54.5243
 20
38.9403
 11
-55.8274
 21
38.0184
  0
LINE
  8
0
 10
-55.8274
 20
38.0184
 11
-62.8274
 21
31.0184
  0
LINE
  8
0
 10
-62.8274
 20
31.0184
 11
-63.3151
 21
26.7112
  0
LINE
  8
0
 10
-63.3151
 20
26.7112
 11
-64.6754
 21
26.7112
  0
LINE
  8
0
 10
-64.6754
 20
26.7112
 11
-64.7068
 21
26.6961
  0
LINE
  8
0
 10
-64.7068
 20
26.6961
 11
-66.3807
 21
25.89
  0
LINE
  8
0
 10
-66.3807
 20
25.89
 11
-67.5391
 21
24.4374
  0
LINE
  8
0
 10
-67.5391
 20
24.4374
 11
-67.5609
 21
24.4102
  0
LINE
  8
0
 10
-67.5609
 20
24.4102
 11
-67.5686
 21
24.3762
  0
LINE
  8
0
 10
-67.5686
 20
24.3762
 11
-67.982
 21
22.5649
  0
LINE
  8
0
 10
-67.982
 20
22.5649
 11
-67.5686
 21
20.7535
  0
LINE
  8
0
 10
-67.5686
 20
20.7535
 11
-67.5609
 21
20.7195
  0
LINE
  8
0
 10
-67.5609
 20
20.7195
 11
-67.5391
 21
20.6923
  0
LINE
  8
0
 10
-67.5391
 20
20.6923
 11
-66.3807
 21
19.2397
  0
LINE
  8
0
 10
-66.3807
 20
19.2397
 11
-64.7068
 21
18.4336
  0
LINE
  8
0
 10
-64.7068
 20
18.4336
 11
-64.6754
 21
18.4185
  0
LINE
  8
0
 10
-64.6754
 20
18.4185
 11
-64.2542
 21
18.4185
  0
LINE
  8
0
 10
-64.2542
 20
18.4185
 11
-64.7306
 21
14.2113
  0
LINE
  8
0
 10
-64.7306
 20
14.2113
 11
-64.9226
 21
10.7614
  0
LINE
  8
0
 10
-64.9226
 20
10.7614
 11
-65.0345
 21
8.75
  0
LINE
  8
0
 10
-65.0345
 20
8.75
 11
-65.0345
 21
-8.75
  0
LINE
  8
0
 10
-65.0345
 20
-8.75
 11
-64.9226
 21
-10.7614
  0
LINE
  8
0
 10
-64.9226
 20
-10.7614
 11
-64.7306
 21
-14.2113
  0
LINE
  8
0
 10
-64.7306
 20
-14.2113
 11
-63.5284
 21
-24.8284
  0
LINE
  8
0
 10
-63.5284
 20
-24.8284
 11
-62.8274
 21
-31.0184
  0
LINE
  8
0
 10
-62.8274
 20
-31.0184
 11
-60.9272
 21
-34.3353
  0
LINE
  8
0
 10
-60.9272
 20
-34.3353
 11
-58.256
 21
-38.9979
  0
LINE
  8
0
 10
-58.256
 20
-38.9979
 11
-58.9034
 21
-39.5411
  0
LINE
  8
0
 10
-58.9034
 20
-39.5411
 11
-59.0703
 21
-39.4607
  0
LINE
  8
0
 10
-59.0703
 20
-39.4607
 11
-59.1017
 21
-39.4456
  0
LINE
  8
0
 10
-59.1017
 20
-39.4456
 11
-60.9945
 21
-39.4456
  0
LINE
  8
0
 10
-60.9945
 20
-39.4456
 11
-61.0259
 21
-39.4607
  0
LINE
  8
0
 10
-61.0259
 20
-39.4607
 11
-62.6998
 21
-40.2668
  0
LINE
  8
0
 10
-62.6998
 20
-40.2668
 11
-63.8582
 21
-41.7194
  0
LINE
  8
0
 10
-63.8582
 20
-41.7194
 11
-63.88
 21
-41.7467
  0
LINE
  8
0
 10
-63.88
 20
-41.7467
 11
-63.8877
 21
-41.7806
  0
LINE
  8
0
 10
-63.8877
 20
-41.7806
 11
-64.3011
 21
-43.592
  0
LINE
  8
0
 10
-64.3011
 20
-43.592
 11
-64.2095
 21
-43.9935
  0
LINE
  8
0
 10
-64.2095
 20
-43.9935
 11
-66.4685
 21
-45.889
  0
LINE
  8
0
 10
-66.4685
 20
-45.889
 11
-66.4685
 21
-45.889
  0
LINE
  8
0
 10
-66.4685
 20
-45.889
 11
-67.2245
 21
-46.8108
  0
LINE
  8
0
 10
-67.2245
 20
-46.8108
 11
-67.7244
 21
-47.4205
  0
LINE
  8
0
 10
-67.7244
 20
-47.4205
 11
-64.6873
 21
-54.9925
  0
LINE
  8
0
 10
-64.6873
 20
-54.9925
 11
-63.845
 21
-57.0925
  0
LINE
  8
0
 10
-63.845
 20
-57.0925
 11
-65.7302
 21
-59.5054
  0
LINE
  8
0
 10
-65.7302
 20
-59.5054
 11
-65.7304
 21
-59.5056
  0
LINE
  8
0
 10
-65.7304
 20
-59.5056
 11
-66.3078
 21
-60.2447
  0
LINE
  8
0
 10
-66.3078
 20
-60.2447
 11
-70.2903
 21
-67.4682
  0
LINE
  8
0
 10
-70.2903
 20
-67.4682
 11
-73.6605
 21
-73.5809
  0
LINE
  8
0
 10
-73.6605
 20
-73.5809
 11
-73.6605
 21
-73.5809
  0
LINE
  8
0
 10
-73.6605
 20
-73.5809
 11
-73.7202
 21
-73.6892
  0
LINE
  8
0
 10
-71.2938
 20
-75.43
 11
-60.8742
 21
-57.0892
  0
LINE
  8
0
 10
-60.8742
 20
-57.0892
 11
-60.8742
 21
-57.0892
  0
LINE
  8
0
 10
-60.8742
 20
-57.0892
 11
-60.8718
 21
-57.0861
  0
LINE
  8
0
 10
-60.8718
 20
-57.0861
 11
-60.8206
 21
-57.0206
  0
LINE
  8
0
 10
-60.8206
 20
-57.0206
 11
-60.8206
 21
-57.0206
  0
LINE
  8
0
 10
-60.8206
 20
-57.0206
 11
-60.8203
 21
-57.0202
  0
LINE
  8
0
 10
-60.8203
 20
-57.0202
 11
-60.8203
 21
-57.0202
  0
LINE
  8
0
 10
-60.8203
 20
-57.0202
 11
-60.7702
 21
-56.9561
  0
LINE
  8
0
 10
-60.7702
 20
-56.9561
 11
-63.8499
 21
-49.9145
  0
LINE
  8
0
 10
-63.8499
 20
-49.9145
 11
-64.8157
 21
-47.7061
  0
LINE
  8
0
 10
-64.8157
 20
-47.7061
 11
-63.1711
 21
-46.3261
  0
LINE
  8
0
 10
-63.1711
 20
-46.3261
 11
-62.6998
 21
-46.9171
  0
LINE
  8
0
 10
-62.6998
 20
-46.9171
 11
-61.0259
 21
-47.7232
  0
LINE
  8
0
 10
-61.0259
 20
-47.7232
 11
-60.9945
 21
-47.7384
  0
LINE
  8
0
 10
-60.9945
 20
-47.7384
 11
-59.1017
 21
-47.7384
  0
LINE
  8
0
 10
-59.1017
 20
-47.7384
 11
-59.0703
 21
-47.7232
  0
LINE
  8
0
 10
-59.0703
 20
-47.7232
 11
-57.3964
 21
-46.9171
  0
LINE
  8
0
 10
-57.3964
 20
-46.9171
 11
-56.238
 21
-45.4645
  0
LINE
  8
0
 10
-56.238
 20
-45.4645
 11
-56.2163
 21
-45.4373
  0
LINE
  8
0
 10
-56.2163
 20
-45.4373
 11
-56.2085
 21
-45.4033
  0
LINE
  8
0
 10
-56.2085
 20
-45.4033
 11
-55.7951
 21
-43.592
  0
LINE
  8
0
 10
-55.7951
 20
-43.592
 11
-56.2085
 21
-41.7806
  0
LINE
  8
0
 10
-56.2085
 20
-41.7806
 11
-56.2163
 21
-41.7467
  0
LINE
  8
0
 10
-56.2163
 20
-41.7467
 11
-56.238
 21
-41.7194
  0
LINE
  8
0
 10
-56.238
 20
-41.7194
 11
-56.8165
 21
-40.994
  0
LINE
  8
0
 10
-56.8165
 20
-40.994
 11
-56.1902
 21
-40.4684
  0
LINE
  8
0
 10
-56.1902
 20
-40.4684
 11
-56.1902
 21
-40.4684
  0
LINE
  8
0
 10
-56.1902
 20
-40.4684
 11
-55.629
 21
-39.7842
  0
LINE
  8
0
 10
-55.629
 20
-39.7842
 11
-55.629
 21
-39.7841
  0
LINE
  8
0
 10
-55.629
 20
-39.7841
 11
-54.9343
 21
-38.937
  0
LINE
  8
0
 10
-54.9343
 20
-38.937
 11
-54.9343
 21
-38.937
  0
LINE
  8
0
 10
-54.9343
 20
-38.937
 11
-56.6057
 21
-36.6235
  0
LINE
  8
0
 10
-56.6057
 20
-36.6235
 11
-60.7274
 21
-30.9184
  0
LINE
  8
0
 10
-60.7274
 20
-30.9184
 11
-61.1205
 21
-27.4471
  0
LINE
  8
0
 10
-61.1205
 20
-27.4471
 11
-52.7116
 21
-27.4471
  0
LINE
  8
0
 10
-52.7116
 20
-27.4471
 11
-52.7116
 21
25.4471
  0
LINE
  8
0
 10
-52.7116
 20
25.4471
 11
-60.7241
 21
25.4471
  0
LINE
  8
0
 10
-60.7241
 20
25.4471
 11
-61.0773
 21
25.89
  0
LINE
  8
0
 10
-61.0773
 20
25.89
 11
-61.2855
 21
25.9902
  0
LINE
  8
0
 10
-61.2855
 20
25.9902
 11
-60.7274
 21
30.9184
  0
LINE
  8
0
 10
-60.7274
 20
30.9184
 11
-55.7274
 21
35.9184
  0
LINE
  8
0
 10
-55.7274
 20
35.9184
 11
-54.209
 21
36.5745
  0
LINE
  8
0
 10
-54.209
 20
36.5745
 11
-49.6412
 21
38.5485
  0
LINE
  8
0
 10
-49.6412
 20
38.5485
 11
-37.8921
 21
38.5485
  0
LINE
  8
0
 10
-37.8921
 20
38.5485
 11
-37.8736
 21
38.5485
  0
LINE
  8
0
 10
-37.8736
 20
38.5485
 11
-33.9896
 21
38.5485
  0
LINE
  8
0
 10
-33.9896
 20
38.5485
 11
-31.1376
 21
38.5485
  0
LINE
  8
0
 10
-31.1376
 20
38.5485
 11
-29.8903
 21
38.5485
  0
LINE
  8
0
 10
-29.8903
 20
38.5485
 11
-18.8473
 21
38.5485
  0
LINE
  8
0
 10
-18.8473
 20
38.5485
 11
-18.8229
 21
38.5485
  0
LINE
  8
0
 10
-18.8229
 20
38.5485
 11
-13.6072
 21
38.5485
  0
LINE
  8
0
 10
-13.6072
 20
38.5485
 11
-11.7529
 21
40.2543
  0
LINE
  8
0
 10
-11.7529
 20
40.2543
 11
-10.5417
 21
41.3685
  0
LINE
  8
0
 10
-10.5417
 20
41.3685
 11
-2.35617
 21
41.3685
  0
LINE
  8
0
 10
-2.35617
 20
41.3685
 11
6.07218
 21
41.3685
  0
LINE
  8
0
 10
6.07218
 20
41.3685
 11
9.0203
 21
39.8549
  0
LINE
  8
0
 10
9.0203
 20
39.8549
 11
11.5649
 21
38.5485
  0
LINE
  8
0
 10
11.5649
 20
38.5485
 11
15.4716
 21
38.5485
  0
LINE
  8
0
 10
15.4716
 20
38.5485
 11
15.6267
 21
37.869
  0
LINE
  8
0
 10
15.6267
 20
37.869
 11
15.6344
 21
37.835
  0
LINE
  8
0
 10
15.6344
 20
37.835
 11
15.6562
 21
37.8078
  0
LINE
  8
0
 10
15.6562
 20
37.8078
 11
16.8145
 21
36.3552
  0
LINE
  8
0
 10
16.8145
 20
36.3552
 11
18.4885
 21
35.5491
  0
LINE
  8
0
 10
18.4885
 20
35.5491
 11
18.5199
 21
35.5339
  0
LINE
  8
0
 10
18.5199
 20
35.5339
 11
20.4126
 21
35.5339
  0
LINE
  8
0
 10
20.4126
 20
35.5339
 11
20.444
 21
35.5491
  0
LINE
  8
0
 10
20.444
 20
35.5491
 11
22.118
 21
36.3552
  0
LINE
  8
0
 10
22.118
 20
36.3552
 11
23.2764
 21
37.8078
  0
LINE
  8
0
 10
23.2764
 20
37.8078
 11
23.2981
 21
37.835
  0
LINE
  8
0
 10
23.2981
 20
37.835
 11
23.3059
 21
37.869
  0
LINE
  8
0
 10
23.3059
 20
37.869
 11
23.4609
 21
38.5485
  0
LINE
  8
0
 10
23.4609
 20
38.5485
 11
28.4672
 21
38.5485
  0
LINE
  8
0
 10
28.4672
 20
38.5485
 11
31.1616
 21
33.1506
  0
LINE
  8
0
 10
31.1616
 20
33.1506
 11
34.4573
 21
26.5485
  0
LINE
  8
0
 10
34.4573
 20
26.5485
 11
43.3246
 21
26.5485
  0
LINE
  8
0
 10
43.3246
 20
26.5485
 11
51.7386
 21
26.5485
  0
LINE
  8
0
 10
51.7386
 20
26.5485
 11
53.8346
 21
26.5485
  0
LINE
  8
0
 10
53.8346
 20
26.5485
 11
56.2211
 21
26.5485
  0
LINE
  8
0
 10
56.2211
 20
26.5485
 11
73.4211
 21
26.5485
  0
LINE
  8
0
 10
73.4211
 20
26.5485
 11
75.7594
 21
24.2899
  0
LINE
  8
0
 10
75.7594
 20
24.2899
 11
78.4211
 21
21.7188
  0
LINE
  8
0
 10
78.4211
 20
21.7188
 11
78.4211
 21
14.5966
  0
LINE
  8
0
 10
78.4211
 20
14.5966
 11
78.4211
 21
6.96209
  0
LINE
  8
0
 10
78.4211
 20
6.96209
 11
78.3244
 21
5.84095
  0
LINE
  8
0
 10
78.3244
 20
5.84095
 11
78.3242
 21
5.83895
  0
LINE
  8
0
 10
78.3242
 20
5.83895
 11
78.3193
 21
5.72652
  0
LINE
  8
0
 10
78.3193
 20
5.72652
 11
77.9232
 21
-3.3
  0
LINE
  8
0
 10
77.9232
 20
-3.3
 11
77.9232
 21
-7.85361
  0
LINE
  8
0
 10
77.9232
 20
-7.85361
 11
77.5747
 21
-7.85361
  0
LINE
  8
0
 10
77.5747
 20
-7.85361
 11
77.5433
 21
-7.86873
  0
LINE
  8
0
 10
77.5433
 20
-7.86873
 11
75.8694
 21
-8.67486
  0
LINE
  8
0
 10
75.8694
 20
-8.67486
 11
74.711
 21
-10.1274
  0
LINE
  8
0
 10
74.711
 20
-10.1274
 11
74.6893
 21
-10.1547
  0
LINE
  8
0
 10
74.6893
 20
-10.1547
 11
74.6815
 21
-10.1887
  0
LINE
  8
0
 10
74.6815
 20
-10.1887
 11
74.2681
 21
-12
  0
LINE
  8
0
 10
74.2681
 20
-12
 11
74.6815
 21
-13.8113
  0
LINE
  8
0
 10
74.6815
 20
-13.8113
 11
74.6893
 21
-13.8453
  0
LINE
  8
0
 10
74.6893
 20
-13.8453
 11
74.711
 21
-13.8726
  0
LINE
  8
0
 10
74.711
 20
-13.8726
 11
75.8694
 21
-15.3251
  0
LINE
  8
0
 10
75.8694
 20
-15.3251
 11
77.5433
 21
-16.1313
  0
LINE
  8
0
 10
77.5433
 20
-16.1313
 11
77.5747
 21
-16.1464
  0
LINE
  8
0
 10
77.5747
 20
-16.1464
 11
77.9232
 21
-16.1464
  0
LINE
  8
0
 10
77.9232
 20
-16.1464
 11
77.9232
 21
-20.7
  0
LINE
  8
0
 10
77.9232
 20
-20.7
 11
78.3193
 21
-29.7265
  0
LINE
  8
0
 10
78.3193
 20
-29.7265
 11
78.3242
 21
-29.8389
  0
LINE
  8
0
 10
78.3242
 20
-29.8389
 11
78.3244
 21
-29.8409
  0
LINE
  8
0
 10
78.3244
 20
-29.8409
 11
78.4211
 21
-30.9621
  0
LINE
  8
0
 10
78.4211
 20
-30.9621
 11
78.4211
 21
-38.5966
  0
LINE
  8
0
 10
78.4211
 20
-38.5966
 11
78.4211
 21
-45.7188
  0
LINE
  8
0
 10
78.4211
 20
-45.7188
 11
75.7594
 21
-48.2899
  0
LINE
  8
0
 10
75.7594
 20
-48.2899
 11
73.4211
 21
-50.5485
  0
LINE
  8
0
 10
73.4211
 20
-50.5485
 11
56.2211
 21
-50.5485
  0
LINE
  8
0
 10
56.2211
 20
-50.5485
 11
53.8346
 21
-50.5485
  0
LINE
  8
0
 10
53.8346
 20
-50.5485
 11
51.7386
 21
-50.5485
  0
LINE
  8
0
 10
51.7386
 20
-50.5485
 11
43.3246
 21
-50.5485
  0
LINE
  8
0
 10
43.3246
 20
-50.5485
 11
34.4573
 21
-50.5485
  0
LINE
  8
0
 10
34.4573
 20
-50.5485
 11
34.2854
 21
-51.077
  0
LINE
  8
0
 10
34.2854
 20
-51.077
 11
34.1627
 21
-51.4543
  0
LINE
  8
0
 10
34.1627
 20
-51.4543
 11
34.164
 21
-51.5106
  0
LINE
  8
0
 10
34.164
 20
-51.5106
 11
34.1895
 21
-52.602
  0
LINE
  8
0
 10
34.1895
 20
-52.602
 11
34.2091
 21
-53.4408
  0
LINE
  8
0
 10
34.2091
 20
-53.4408
 11
34.21
 21
-53.4828
  0
LINE
  8
0
 10
34.21
 20
-53.4828
 11
34.21
 21
-53.4828
  0
LINE
  8
0
 10
34.21
 20
-53.4828
 11
34.2664
 21
-53.4828
  0
LINE
  8
0
 10
34.2664
 20
-53.4828
 11
37.7037
 21
-53.4828
  0
LINE
  8
0
 10
37.7037
 20
-53.4828
 11
37.2584
 21
-54.236
  0
LINE
  8
0
 10
37.2584
 20
-54.236
 11
33.3369
 21
-60.8699
  0
LINE
  8
0
 10
33.3369
 20
-60.8699
 11
27.193
 21
-60.8699
  0
LINE
  8
0
 10
27.193
 20
-60.8699
 11
13.8377
 21
-60.8699
  0
LINE
  8
0
 10
13.8377
 20
-60.8699
 11
9.77221
 21
-61.9858
  0
LINE
  8
0
 10
9.77221
 20
-61.9858
 11
4.5749
 21
-63.4123
  0
LINE
  8
0
 10
4.5749
 20
-63.4123
 11
4.26448
 21
-63.023
  0
LINE
  8
0
 10
4.26448
 20
-63.023
 11
2.59055
 21
-62.2169
  0
LINE
  8
0
 10
2.59055
 20
-62.2169
 11
2.55915
 21
-62.2018
  0
LINE
  8
0
 10
2.55915
 20
-62.2018
 11
0.666379
 21
-62.2018
  0
LINE
  8
0
 10
0.666379
 20
-62.2018
 11
0.634983
 21
-62.2169
  0
LINE
  8
0
 10
0.634983
 20
-62.2169
 11
-1.03895
 21
-63.023
  0
LINE
  8
0
 10
-1.03895
 20
-63.023
 11
-2.19735
 21
-64.4756
  0
LINE
  8
0
 10
-2.19735
 20
-64.4756
 11
-2.21907
 21
-64.5028
  0
LINE
  8
0
 10
-2.21907
 20
-64.5028
 11
-2.22683
 21
-64.5368
  0
LINE
  8
0
 10
-2.22683
 20
-64.5368
 11
-2.64025
 21
-66.3481
  0
LINE
  8
0
 10
-2.64025
 20
-66.3481
 11
-2.54286
 21
-66.7748
  0
LINE
  8
0
 10
-2.54286
 20
-66.7748
 11
-4.97705
 21
-68.3567
  0
LINE
  8
0
 10
-4.97705
 20
-68.3567
 11
-12.5391
 21
-73.271
  0
LINE
  8
0
 10
-12.5391
 20
-73.271
 11
-13.4049
 21
-73.9319
  0
LINE
  8
0
 10
-13.4049
 20
-73.9319
 11
-14.1134
 21
-74.4727
  0
LINE
  8
0
 10
-14.1134
 20
-74.4727
 11
-14.1356
 21
-74.4973
  0
LINE
  8
0
 10
-14.1356
 20
-74.4973
 11
-19.8973
 21
-80.8964
  0
LINE
  8
0
 10
-19.8973
 20
-80.8964
 11
-23.7462
 21
-85.171
  0
LINE
  8
0
 10
-23.7462
 20
-85.171
 11
-23.7462
 21
-85.171
  0
LINE
  8
0
 10
-23.7462
 20
-85.171
 11
-23.7658
 21
-85.1928
  0
LINE
  8
0
 10
-23.7658
 20
-85.1928
 11
-23.4088
 21
-86.8493
  0
LINE
  8
0
 10
-23.4088
 20
-86.8493
 11
-22.7532
 21
-89.8924
  0
LINE
  8
0
 10
-22.7532
 20
-89.8924
 11
-25.0884
 21
-93.1065
  0
LINE
  8
0
 10
-25.0884
 20
-93.1065
 11
-36.9635
 21
-100.974
  0
LINE
  8
0
 10
-36.9635
 20
-100.974
 11
-39.4244
 21
-101.007
  0
LINE
  8
0
 10
-39.4244
 20
-101.007
 11
-51.702
 21
-90.2655
  0
LINE
  8
0
 10
-51.702
 20
-90.2655
 11
-52.1778
 21
-89.9198
  0
LINE
  8
0
 10
-52.1778
 20
-89.9198
 11
-52.8576
 21
-89.4259
  0
LINE
  8
0
 10
-52.8576
 20
-89.4259
 11
-52.9323
 21
-89.3716
  0
LINE
  8
0
 10
-52.9323
 20
-89.3716
 11
-53.2084
 21
-89.205
  0
LINE
  8
0
 10
-53.2084
 20
-89.205
 11
-57.8166
 21
-87.8652
  0
LINE
  8
0
 10
-57.8166
 20
-87.8652
 11
-57.8166
 21
-87.8652
  0
LINE
  8
0
 10
-57.8166
 20
-87.8652
 11
-68.6164
 21
-79.0197
  0
LINE
  8
0
 10
-68.6164
 20
-79.0197
 11
-71.1468
 21
-76.9472
  0
LINE
  8
0
 10
-71.1468
 20
-76.9472
 11
-71.2938
 21
-75.43
  0
LINE
  8
0
 10
-65.429
 20
22.5649
 11
-64.579
 21
24.0371
  0
LINE
  8
0
 10
-64.579
 20
24.0371
 11
-62.879
 21
24.0371
  0
LINE
  8
0
 10
-62.879
 20
24.0371
 11
-62.029
 21
22.5649
  0
LINE
  8
0
 10
-62.029
 20
22.5649
 11
-62.879
 21
21.0926
  0
LINE
  8
0
 10
-62.879
 20
21.0926
 11
-64.579
 21
21.0926
  0
LINE
  8
0
 10
-64.579
 20
21.0926
 11
-65.429
 21
22.5649
  0
LINE
  8
0
 10
-62.9345
 20
-8.65
 11
-62.9345
 21
8.65
  0
LINE
  8
0
 10
-62.9345
 20
8.65
 11
-62.732
 21
12.2893
  0
LINE
  8
0
 10
-62.732
 20
12.2893
 11
-62.6306
 21
14.1113
  0
LINE
  8
0
 10
-62.6306
 20
14.1113
 11
-62.106
 21
18.7443
  0
LINE
  8
0
 10
-62.106
 20
18.7443
 11
-61.7116
 21
18.9343
  0
LINE
  8
0
 10
-61.7116
 20
18.9343
 11
-61.7116
 21
-22.2274
  0
LINE
  8
0
 10
-61.7116
 20
-22.2274
 11
-62.6306
 21
-14.1113
  0
LINE
  8
0
 10
-62.6306
 20
-14.1113
 11
-62.732
 21
-12.2893
  0
LINE
  8
0
 10
-62.732
 20
-12.2893
 11
-62.9345
 21
-8.65
  0
LINE
  8
0
 10
-61.7481
 20
-43.592
 11
-60.8981
 21
-42.1197
  0
LINE
  8
0
 10
-60.8981
 20
-42.1197
 11
-59.1981
 21
-42.1197
  0
LINE
  8
0
 10
-59.1981
 20
-42.1197
 11
-58.3481
 21
-43.592
  0
LINE
  8
0
 10
-58.3481
 20
-43.592
 11
-59.1981
 21
-45.0642
  0
LINE
  8
0
 10
-59.1981
 20
-45.0642
 11
-60.8981
 21
-45.0642
  0
LINE
  8
0
 10
-60.8981
 20
-45.0642
 11
-61.7481
 21
-43.592
  0
LINE
  8
0
 10
-0.0872352
 20
-66.3481
 11
0.762765
 21
-64.8759
  0
LINE
  8
0
 10
0.762765
 20
-64.8759
 11
2.46276
 21
-64.8759
  0
LINE
  8
0
 10
2.46276
 20
-64.8759
 11
3.31276
 21
-66.3481
  0
LINE
  8
0
 10
3.31276
 20
-66.3481
 11
2.46276
 21
-67.8204
  0
LINE
  8
0
 10
2.46276
 20
-67.8204
 11
0.762765
 21
-67.8204
  0
LINE
  8
0
 10
0.762765
 20
-67.8204
 11
-0.0872352
 21
-66.3481
  0
LINE
  8
0
 10
17.7663
 20
39.6803
 11
18.6163
 21
41.1526
  0
LINE
  8
0
 10
18.6163
 20
41.1526
 11
20.3163
 21
41.1526
  0
LINE
  8
0
 10
20.3163
 20
41.1526
 11
21.1663
 21
39.6803
  0
LINE
  8
0
 10
21.1663
 20
39.6803
 11
20.3163
 21
38.2081
  0
LINE
  8
0
 10
20.3163
 20
38.2081
 11
18.6163
 21
38.2081
  0
LINE
  8
0
 10
18.6163
 20
38.2081
 11
17.7663
 21
39.6803
  0
LINE
  8
0
 10
76.8211
 20
-12
 11
77.6711
 21
-10.5278
  0
LINE
  8
0
 10
77.6711
 20
-10.5278
 11
79.3711
 21
-10.5278
  0
LINE
  8
0
 10
79.3711
 20
-10.5278
 11
80.2211
 21
-12
  0
LINE
  8
0
 10
80.2211
 20
-12
 11
79.3711
 21
-13.4722
  0
LINE
  8
0
 10
79.3711
 20
-13.4722
 11
77.6711
 21
-13.4722
  0
LINE
  8
0
 10
77.6711
 20
-13.4722
 11
76.8211
 21
-12
  0
ENDSEC
  0
SECTION
  2
OBJECTS
  0
DICTIONARY
  0
ENDSEC
  0
EOF
