  0
SECTION
  2
BLOCKS
  0
ENDSEC
  0
SECTION
  2
ENTITIES
  0
LINE
  8
0
 10
-74.6443
 20
-73.4919
 11
-74.4213
 21
-75.6547
  0
LINE
  8
0
 10
-74.4213
 20
-75.6547
 11
-74.0643
 21
-79.1168
  0
LINE
  8
0
 10
-74.0643
 20
-79.1168
 11
-74.0077
 21
-79.1633
  0
LINE
  8
0
 10
-74.0077
 20
-79.1633
 11
-73.9869
 21
-79.1803
  0
LINE
  8
0
 10
-73.9869
 20
-79.1803
 11
-73.9869
 21
-79.1803
  0
LINE
  8
0
 10
-73.9869
 20
-79.1803
 11
-64.8178
 21
-86.7104
  0
LINE
  8
0
 10
-64.8178
 20
-86.7104
 11
-60.6201
 21
-90.1578
  0
LINE
  8
0
 10
-60.6201
 20
-90.1578
 11
-60.594
 21
-90.1792
  0
LINE
  8
0
 10
-60.594
 20
-90.1792
 11
-58.8113
 21
-91.0497
  0
LINE
  8
0
 10
-58.8113
 20
-91.0497
 11
-55.6797
 21
-91.3937
  0
LINE
  8
0
 10
-55.6797
 20
-91.3937
 11
-55.6797
 21
-91.3937
  0
LINE
  8
0
 10
-55.6797
 20
-91.3937
 11
-45.9629
 21
-99.9851
  0
LINE
  8
0
 10
-45.9629
 20
-99.9851
 11
-42.4122
 21
-103.125
  0
LINE
  8
0
 10
-42.4122
 20
-103.125
 11
-42.4122
 21
-103.125
  0
LINE
  8
0
 10
-42.4122
 20
-103.125
 11
-42.335
 21
-103.193
  0
LINE
  8
0
 10
-42.335
 20
-103.193
 11
-40.6128
 21
-103.185
  0
LINE
  8
0
 10
-40.6128
 20
-103.185
 11
-34.841
 21
-103.157
  0
LINE
  8
0
 10
-34.841
 20
-103.157
 11
-34.8012
 21
-103.132
  0
LINE
  8
0
 10
-34.8012
 20
-103.132
 11
-31.2517
 21
-100.856
  0
LINE
  8
0
 10
-31.2517
 20
-100.856
 11
-27.3925
 21
-98.3827
  0
LINE
  8
0
 10
-27.3925
 20
-98.3827
 11
-24.8974
 21
-95.8768
  0
LINE
  8
0
 10
-24.8974
 20
-95.8768
 11
-22.9811
 21
-93.9522
  0
LINE
  8
0
 10
-22.9811
 20
-93.9522
 11
-22.2734
 21
-92.9782
  0
LINE
  8
0
 10
-22.2734
 20
-92.9782
 11
-20.3644
 21
-90.3507
  0
LINE
  8
0
 10
-20.3644
 20
-90.3507
 11
-21.3336
 21
-86.5793
  0
LINE
  8
0
 10
-21.3336
 20
-86.5793
 11
-21.632
 21
-85.4182
  0
LINE
  8
0
 10
-21.632
 20
-85.4182
 11
-17.4274
 21
-80.7485
  0
LINE
  8
0
 10
-17.4274
 20
-80.7485
 11
-12.432
 21
-75.2005
  0
LINE
  8
0
 10
-12.432
 20
-75.2005
 11
-5.60197
 21
-70.6438
  0
LINE
  8
0
 10
-5.60197
 20
-70.6438
 11
-5.60165
 21
-70.6436
  0
LINE
  8
0
 10
-5.60165
 20
-70.6436
 11
-2.11838
 21
-68.3197
  0
LINE
  8
0
 10
-2.11838
 20
-68.3197
 11
-1.03895
 21
-69.6733
  0
LINE
  8
0
 10
-1.03895
 20
-69.6733
 11
0.634983
 21
-70.4794
  0
LINE
  8
0
 10
0.634983
 20
-70.4794
 11
0.666379
 21
-70.4945
  0
LINE
  8
0
 10
0.666379
 20
-70.4945
 11
2.55915
 21
-70.4945
  0
LINE
  8
0
 10
2.55915
 20
-70.4945
 11
2.59055
 21
-70.4794
  0
LINE
  8
0
 10
2.59055
 20
-70.4794
 11
4.26448
 21
-69.6733
  0
LINE
  8
0
 10
4.26448
 20
-69.6733
 11
5.42287
 21
-68.2207
  0
LINE
  8
0
 10
5.42287
 20
-68.2207
 11
5.4446
 21
-68.1935
  0
LINE
  8
0
 10
5.4446
 20
-68.1935
 11
5.45236
 21
-68.1595
  0
LINE
  8
0
 10
5.45236
 20
-68.1595
 11
5.86578
 21
-66.3481
  0
LINE
  8
0
 10
5.86578
 20
-66.3481
 11
5.79472
 21
-66.0368
  0
LINE
  8
0
 10
5.79472
 20
-66.0368
 11
14.5581
 21
-64.4386
  0
LINE
  8
0
 10
14.5581
 20
-64.4386
 11
22.4961
 21
-64.4386
  0
LINE
  8
0
 10
22.4961
 20
-64.4386
 11
35.0421
 21
-64.4386
  0
LINE
  8
0
 10
35.0421
 20
-64.4386
 11
40.1194
 21
-57.7605
  0
LINE
  8
0
 10
40.1194
 20
-57.7605
 11
43.3717
 21
-53.4828
  0
LINE
  8
0
 10
43.3717
 20
-53.4828
 11
47.3971
 21
-53.4828
  0
LINE
  8
0
 10
47.3971
 20
-53.4828
 11
53.5904
 21
-53.4828
  0
LINE
  8
0
 10
53.5904
 20
-53.4828
 11
57.5969
 21
-53.4828
  0
LINE
  8
0
 10
57.5969
 20
-53.4828
 11
77.0451
 21
-53.4828
  0
LINE
  8
0
 10
77.0451
 20
-53.4828
 11
82.3297
 21
-48.3782
  0
LINE
  8
0
 10
82.3297
 20
-48.3782
 11
84.0451
 21
-46.7213
  0
LINE
  8
0
 10
84.0451
 20
-46.7213
 11
84.0451
 21
-46.6482
  0
LINE
  8
0
 10
84.0451
 20
-46.6482
 11
84.0451
 21
-34.4861
  0
LINE
  8
0
 10
84.0451
 20
-34.4861
 11
84.0451
 21
10.4861
  0
LINE
  8
0
 10
84.0451
 20
10.4861
 11
84.0451
 21
22.6482
  0
LINE
  8
0
 10
84.0451
 20
22.6482
 11
84.0451
 21
24.7608
  0
LINE
  8
0
 10
84.0451
 20
24.7608
 11
84.0451
 21
24.8466
  0
LINE
  8
0
 10
84.0451
 20
24.8466
 11
84.0451
 21
31.3425
  0
LINE
  8
0
 10
84.0451
 20
31.3425
 11
84.0451
 21
35.453
  0
LINE
  8
0
 10
84.0451
 20
35.453
 11
84.6968
 21
35.7668
  0
LINE
  8
0
 10
84.6968
 20
35.7668
 11
85.8552
 21
37.2194
  0
LINE
  8
0
 10
85.8552
 20
37.2194
 11
85.8769
 21
37.2467
  0
LINE
  8
0
 10
85.8769
 20
37.2467
 11
85.8847
 21
37.2806
  0
LINE
  8
0
 10
85.8847
 20
37.2806
 11
86.2981
 21
39.092
  0
LINE
  8
0
 10
86.2981
 20
39.092
 11
85.8847
 21
40.9033
  0
LINE
  8
0
 10
85.8847
 20
40.9033
 11
85.8769
 21
40.9373
  0
LINE
  8
0
 10
85.8769
 20
40.9373
 11
85.8552
 21
40.9645
  0
LINE
  8
0
 10
85.8552
 20
40.9645
 11
84.6968
 21
42.4171
  0
LINE
  8
0
 10
84.6968
 20
42.4171
 11
84.0451
 21
42.731
  0
LINE
  8
0
 10
84.0451
 20
42.731
 11
84.0451
 21
46.3422
  0
LINE
  8
0
 10
84.0451
 20
46.3422
 11
84.0451
 21
50.8475
  0
LINE
  8
0
 10
84.0451
 20
50.8475
 11
84.0451
 21
50.8874
  0
LINE
  8
0
 10
84.0451
 20
50.8874
 11
84.0451
 21
53.7975
  0
LINE
  8
0
 10
84.0451
 20
53.7975
 11
84.0451
 21
62.0821
  0
LINE
  8
0
 10
84.0451
 20
62.0821
 11
84.0451
 21
66.0368
  0
LINE
  8
0
 10
84.0451
 20
66.0368
 11
84.0451
 21
66.0368
  0
LINE
  8
0
 10
84.0451
 20
66.0368
 11
84.0451
 21
66.0532
  0
LINE
  8
0
 10
84.0451
 20
66.0532
 11
78.6668
 21
69.8563
  0
LINE
  8
0
 10
78.6668
 20
69.8563
 11
77.0451
 21
71.003
  0
LINE
  8
0
 10
77.0451
 20
71.003
 11
57.1069
 21
71.003
  0
LINE
  8
0
 10
57.1069
 20
71.003
 11
56.4524
 21
71.003
  0
LINE
  8
0
 10
56.4524
 20
71.003
 11
42.7785
 21
71.003
  0
LINE
  8
0
 10
42.7785
 20
71.003
 11
39.3055
 21
71.003
  0
LINE
  8
0
 10
39.3055
 20
71.003
 11
38.3442
 21
73.6614
  0
LINE
  8
0
 10
38.3442
 20
73.6614
 11
34.9659
 21
83.003
  0
LINE
  8
0
 10
34.9659
 20
83.003
 11
30.1021
 21
83.003
  0
LINE
  8
0
 10
30.1021
 20
83.003
 11
29.9307
 21
83.7537
  0
LINE
  8
0
 10
29.9307
 20
83.7537
 11
29.923
 21
83.7876
  0
LINE
  8
0
 10
29.923
 20
83.7876
 11
29.9013
 21
83.8149
  0
LINE
  8
0
 10
29.9013
 20
83.8149
 11
28.7429
 21
85.2675
  0
LINE
  8
0
 10
28.7429
 20
85.2675
 11
27.0689
 21
86.0736
  0
LINE
  8
0
 10
27.0689
 20
86.0736
 11
27.0375
 21
86.0887
  0
LINE
  8
0
 10
27.0375
 20
86.0887
 11
25.1448
 21
86.0887
  0
LINE
  8
0
 10
25.1448
 20
86.0887
 11
25.1134
 21
86.0736
  0
LINE
  8
0
 10
25.1134
 20
86.0736
 11
23.4394
 21
85.2675
  0
LINE
  8
0
 10
23.4394
 20
85.2675
 11
22.281
 21
83.8149
  0
LINE
  8
0
 10
22.281
 20
83.8149
 11
22.2593
 21
83.7876
  0
LINE
  8
0
 10
22.2593
 20
83.7876
 11
22.2516
 21
83.7537
  0
LINE
  8
0
 10
22.2516
 20
83.7537
 11
22.0802
 21
83.003
  0
LINE
  8
0
 10
22.0802
 20
83.003
 11
21.6264
 21
83.003
  0
LINE
  8
0
 10
21.6264
 20
83.003
 11
17.9288
 21
83.003
  0
LINE
  8
0
 10
17.9288
 20
83.003
 11
17.06
 21
83.6375
  0
LINE
  8
0
 10
17.06
 20
83.6375
 11
14.0676
 21
85.823
  0
LINE
  8
0
 10
14.0676
 20
85.823
 11
1.04226
 21
85.823
  0
LINE
  8
0
 10
1.04226
 20
85.823
 11
1.01836
 21
85.823
  0
LINE
  8
0
 10
1.01836
 20
85.823
 11
-2.71976
 21
85.823
  0
LINE
  8
0
 10
-2.71976
 20
85.823
 11
-2.73952
 21
85.823
  0
LINE
  8
0
 10
-2.73952
 20
85.823
 11
-3.92449
 21
83.5796
  0
LINE
  8
0
 10
-3.92449
 20
83.5796
 11
-4.2291
 21
83.003
  0
LINE
  8
0
 10
-4.2291
 20
83.003
 11
-17.4556
 21
83.003
  0
LINE
  8
0
 10
-17.4556
 20
83.003
 11
-20.4701
 21
83.003
  0
LINE
  8
0
 10
-20.4701
 20
83.003
 11
-22.7669
 21
83.003
  0
LINE
  8
0
 10
-22.7669
 20
83.003
 11
-23.2287
 21
83.003
  0
LINE
  8
0
 10
-23.2287
 20
83.003
 11
-36.3283
 21
83.003
  0
LINE
  8
0
 10
-36.3283
 20
83.003
 11
-36.345
 21
83.003
  0
LINE
  8
0
 10
-36.345
 20
83.003
 11
-38.9228
 21
83.003
  0
LINE
  8
0
 10
-38.9228
 20
83.003
 11
-40.3299
 21
81.5339
  0
LINE
  8
0
 10
-40.3299
 20
81.5339
 11
-46.7315
 21
74.8502
  0
LINE
  8
0
 10
-46.7315
 20
74.8502
 11
-53.7315
 21
67.8502
  0
LINE
  8
0
 10
-53.7315
 20
67.8502
 11
-54.7244
 21
65.5007
  0
LINE
  8
0
 10
-54.7244
 20
65.5007
 11
-55.3036
 21
65.7796
  0
LINE
  8
0
 10
-55.3036
 20
65.7796
 11
-55.335
 21
65.7947
  0
LINE
  8
0
 10
-55.335
 20
65.7947
 11
-57.2278
 21
65.7947
  0
LINE
  8
0
 10
-57.2278
 20
65.7947
 11
-57.2592
 21
65.7796
  0
LINE
  8
0
 10
-57.2592
 20
65.7796
 11
-58.9331
 21
64.9735
  0
LINE
  8
0
 10
-58.9331
 20
64.9735
 11
-60.0915
 21
63.5209
  0
LINE
  8
0
 10
-60.0915
 20
63.5209
 11
-60.1132
 21
63.4937
  0
LINE
  8
0
 10
-60.1132
 20
63.4937
 11
-60.121
 21
63.4597
  0
LINE
  8
0
 10
-60.121
 20
63.4597
 11
-60.5344
 21
61.6484
  0
LINE
  8
0
 10
-60.5344
 20
61.6484
 11
-60.121
 21
59.837
  0
LINE
  8
0
 10
-60.121
 20
59.837
 11
-60.1132
 21
59.803
  0
LINE
  8
0
 10
-60.1132
 20
59.803
 11
-60.0915
 21
59.7758
  0
LINE
  8
0
 10
-60.0915
 20
59.7758
 11
-58.9331
 21
58.3232
  0
LINE
  8
0
 10
-58.9331
 20
58.3232
 11
-57.9565
 21
57.8529
  0
LINE
  8
0
 10
-57.9565
 20
57.8529
 11
-57.9943
 21
57.7636
  0
LINE
  8
0
 10
-57.9943
 20
57.7636
 11
-58.9313
 21
55.5465
  0
LINE
  8
0
 10
-58.9313
 20
55.5465
 11
-59.2732
 21
54.4921
  0
LINE
  8
0
 10
-59.2732
 20
54.4921
 11
-60.3484
 21
51.1764
  0
LINE
  8
0
 10
-60.3484
 20
51.1764
 11
-61.4415
 21
46.6968
  0
LINE
  8
0
 10
-61.4415
 20
46.6968
 11
-64.0252
 21
36.1075
  0
LINE
  8
0
 10
-64.0252
 20
36.1075
 11
-64.6513
 21
32.5313
  0
LINE
  8
0
 10
-64.6513
 20
32.5313
 11
-64.9161
 21
31.0184
  0
LINE
  8
0
 10
-64.9161
 20
31.0184
 11
-66.2198
 21
19.5054
  0
LINE
  8
0
 10
-66.2198
 20
19.5054
 11
-66.8193
 21
14.2113
  0
LINE
  8
0
 10
-66.8193
 20
14.2113
 11
-66.9316
 21
12.1932
  0
LINE
  8
0
 10
-66.9316
 20
12.1932
 11
-67.1232
 21
8.75
  0
LINE
  8
0
 10
-67.1232
 20
8.75
 11
-67.1232
 21
-8.75
  0
LINE
  8
0
 10
-67.1232
 20
-8.75
 11
-66.9316
 21
-12.1932
  0
LINE
  8
0
 10
-66.9316
 20
-12.1932
 11
-66.8193
 21
-14.2113
  0
LINE
  8
0
 10
-66.8193
 20
-14.2113
 11
-66.2198
 21
-19.5054
  0
LINE
  8
0
 10
-66.2198
 20
-19.5054
 11
-64.9161
 21
-31.0184
  0
LINE
  8
0
 10
-64.9161
 20
-31.0184
 11
-62.5911
 21
-34.3017
  0
LINE
  8
0
 10
-62.5911
 20
-34.3017
 11
-59.2493
 21
-39.0209
  0
LINE
  8
0
 10
-59.2493
 20
-39.0209
 11
-60.2787
 21
-39.8847
  0
LINE
  8
0
 10
-60.2787
 20
-39.8847
 11
-61.1591
 21
-39.4607
  0
LINE
  8
0
 10
-61.1591
 20
-39.4607
 11
-61.1904
 21
-39.4456
  0
LINE
  8
0
 10
-61.1904
 20
-39.4456
 11
-63.0832
 21
-39.4456
  0
LINE
  8
0
 10
-63.0832
 20
-39.4456
 11
-63.1146
 21
-39.4607
  0
LINE
  8
0
 10
-63.1146
 20
-39.4607
 11
-64.7885
 21
-40.2668
  0
LINE
  8
0
 10
-64.7885
 20
-40.2668
 11
-65.9469
 21
-41.7194
  0
LINE
  8
0
 10
-65.9469
 20
-41.7194
 11
-65.9687
 21
-41.7467
  0
LINE
  8
0
 10
-65.9687
 20
-41.7467
 11
-65.9764
 21
-41.7806
  0
LINE
  8
0
 10
-65.9764
 20
-41.7806
 11
-66.3899
 21
-43.592
  0
LINE
  8
0
 10
-66.3899
 20
-43.592
 11
-66.1177
 21
-44.7842
  0
LINE
  8
0
 10
-66.1177
 20
-44.7842
 11
-67.4345
 21
-45.889
  0
LINE
  8
0
 10
-67.4345
 20
-45.889
 11
-68.1789
 21
-46.7968
  0
LINE
  8
0
 10
-68.1789
 20
-46.7968
 11
-68.1789
 21
-46.7968
  0
LINE
  8
0
 10
-68.1789
 20
-46.7968
 11
-68.6904
 21
-47.4205
  0
LINE
  8
0
 10
-68.6904
 20
-47.4205
 11
-65.713
 21
-54.8436
  0
LINE
  8
0
 10
-65.713
 20
-54.8436
 11
-64.811
 21
-57.0925
  0
LINE
  8
0
 10
-64.811
 20
-57.0925
 11
-66.8396
 21
-59.6889
  0
LINE
  8
0
 10
-66.8396
 20
-59.6889
 11
-66.8397
 21
-59.6891
  0
LINE
  8
0
 10
-66.8397
 20
-59.6891
 11
-67.5013
 21
-60.5359
  0
LINE
  8
0
 10
-67.5013
 20
-60.5359
 11
-74.5846
 21
-73.3836
  0
LINE
  8
0
 10
-74.5846
 20
-73.3836
 11
-74.5846
 21
-73.3836
  0
LINE
  8
0
 10
-74.5846
 20
-73.3836
 11
-74.6443
 21
-73.4919
  0
LINE
  8
0
 10
-72.2122
 20
-75.2371
 11
-62.0677
 21
-57.3805
  0
LINE
  8
0
 10
-62.0677
 20
-57.3805
 11
-62.0677
 21
-57.3805
  0
LINE
  8
0
 10
-62.0677
 20
-57.3805
 11
-62.0677
 21
-57.3805
  0
LINE
  8
0
 10
-62.0677
 20
-57.3805
 11
-62.052
 21
-57.3604
  0
LINE
  8
0
 10
-62.052
 20
-57.3604
 11
-61.7866
 21
-57.0206
  0
LINE
  8
0
 10
-61.7866
 20
-57.0206
 11
-61.7866
 21
-57.0206
  0
LINE
  8
0
 10
-61.7866
 20
-57.0206
 11
-61.738
 21
-56.9584
  0
LINE
  8
0
 10
-61.738
 20
-56.9584
 11
-61.7361
 21
-56.9561
  0
LINE
  8
0
 10
-61.7361
 20
-56.9561
 11
-64.759
 21
-50.0444
  0
LINE
  8
0
 10
-64.759
 20
-50.0444
 11
-65.7817
 21
-47.7061
  0
LINE
  8
0
 10
-65.7817
 20
-47.7061
 11
-64.8097
 21
-46.8906
  0
LINE
  8
0
 10
-64.8097
 20
-46.8906
 11
-64.7885
 21
-46.9171
  0
LINE
  8
0
 10
-64.7885
 20
-46.9171
 11
-63.1146
 21
-47.7232
  0
LINE
  8
0
 10
-63.1146
 20
-47.7232
 11
-63.0832
 21
-47.7384
  0
LINE
  8
0
 10
-63.0832
 20
-47.7384
 11
-61.1904
 21
-47.7384
  0
LINE
  8
0
 10
-61.1904
 20
-47.7384
 11
-61.1591
 21
-47.7232
  0
LINE
  8
0
 10
-61.1591
 20
-47.7232
 11
-59.4851
 21
-46.9171
  0
LINE
  8
0
 10
-59.4851
 20
-46.9171
 11
-58.3267
 21
-45.4645
  0
LINE
  8
0
 10
-58.3267
 20
-45.4645
 11
-58.305
 21
-45.4373
  0
LINE
  8
0
 10
-58.305
 20
-45.4373
 11
-58.2972
 21
-45.4033
  0
LINE
  8
0
 10
-58.2972
 20
-45.4033
 11
-57.8838
 21
-43.592
  0
LINE
  8
0
 10
-57.8838
 20
-43.592
 11
-58.2972
 21
-41.7806
  0
LINE
  8
0
 10
-58.2972
 20
-41.7806
 11
-58.305
 21
-41.7467
  0
LINE
  8
0
 10
-58.305
 20
-41.7467
 11
-58.3267
 21
-41.7194
  0
LINE
  8
0
 10
-58.3267
 20
-41.7194
 11
-58.4551
 21
-41.5584
  0
LINE
  8
0
 10
-58.4551
 20
-41.5584
 11
-57.1561
 21
-40.4684
  0
LINE
  8
0
 10
-57.1561
 20
-40.4684
 11
-57.1561
 21
-40.4684
  0
LINE
  8
0
 10
-57.1561
 20
-40.4684
 11
-56.6013
 21
-39.7919
  0
LINE
  8
0
 10
-56.6013
 20
-39.7919
 11
-56.6013
 21
-39.7919
  0
LINE
  8
0
 10
-56.6013
 20
-39.7919
 11
-55.9002
 21
-38.937
  0
LINE
  8
0
 10
-55.9002
 20
-38.937
 11
-55.9002
 21
-38.937
  0
LINE
  8
0
 10
-55.9002
 20
-38.937
 11
-57.8641
 21
-36.66
  0
LINE
  8
0
 10
-57.8641
 20
-36.66
 11
-62.8161
 21
-30.9184
  0
LINE
  8
0
 10
-62.8161
 20
-30.9184
 11
-63.2092
 21
-27.4471
  0
LINE
  8
0
 10
-63.2092
 20
-27.4471
 11
-54.8003
 21
-27.4471
  0
LINE
  8
0
 10
-54.8003
 20
-27.4471
 11
-54.8003
 21
25.4471
  0
LINE
  8
0
 10
-54.8003
 20
25.4471
 11
-63.4357
 21
25.4471
  0
LINE
  8
0
 10
-63.4357
 20
25.4471
 11
-63.4266
 21
25.5269
  0
LINE
  8
0
 10
-63.4266
 20
25.5269
 11
-62.8161
 21
30.9184
  0
LINE
  8
0
 10
-62.8161
 20
30.9184
 11
-62.576
 21
32.2899
  0
LINE
  8
0
 10
-62.576
 20
32.2899
 11
-61.9252
 21
36.0075
  0
LINE
  8
0
 10
-61.9252
 20
36.0075
 11
-61.1066
 21
39.3626
  0
LINE
  8
0
 10
-61.1066
 20
39.3626
 11
-58.2484
 21
51.0764
  0
LINE
  8
0
 10
-58.2484
 20
51.0764
 11
-57.1468
 21
54.4735
  0
LINE
  8
0
 10
-57.1468
 20
54.4735
 11
-56.8313
 21
55.4465
  0
LINE
  8
0
 10
-56.8313
 20
55.4465
 11
-55.9626
 21
57.502
  0
LINE
  8
0
 10
-55.9626
 20
57.502
 11
-55.335
 21
57.502
  0
LINE
  8
0
 10
-55.335
 20
57.502
 11
-55.3036
 21
57.5171
  0
LINE
  8
0
 10
-55.3036
 20
57.5171
 11
-53.6297
 21
58.3232
  0
LINE
  8
0
 10
-53.6297
 20
58.3232
 11
-52.4713
 21
59.7758
  0
LINE
  8
0
 10
-52.4713
 20
59.7758
 11
-52.4496
 21
59.803
  0
LINE
  8
0
 10
-52.4496
 20
59.803
 11
-52.4418
 21
59.837
  0
LINE
  8
0
 10
-52.4418
 20
59.837
 11
-52.0284
 21
61.6484
  0
LINE
  8
0
 10
-52.0284
 20
61.6484
 11
-52.4418
 21
63.4597
  0
LINE
  8
0
 10
-52.4418
 20
63.4597
 11
-52.4496
 21
63.4937
  0
LINE
  8
0
 10
-52.4496
 20
63.4937
 11
-52.4713
 21
63.5209
  0
LINE
  8
0
 10
-52.4713
 20
63.5209
 11
-53.0906
 21
64.2976
  0
LINE
  8
0
 10
-53.0906
 20
64.2976
 11
-52.7165
 21
65.1828
  0
LINE
  8
0
 10
-52.7165
 20
65.1828
 11
-51.6315
 21
67.7502
  0
LINE
  8
0
 10
-51.6315
 20
67.7502
 11
-46.6315
 21
72.7502
  0
LINE
  8
0
 10
-46.6315
 20
72.7502
 11
-45.4391
 21
73.6633
  0
LINE
  8
0
 10
-45.4391
 20
73.6633
 11
-38.4138
 21
79.0432
  0
LINE
  8
0
 10
-38.4138
 20
79.0432
 11
-25.0215
 21
79.0432
  0
LINE
  8
0
 10
-25.0215
 20
79.0432
 11
-22.7493
 21
79.0432
  0
LINE
  8
0
 10
-22.7493
 20
79.0432
 11
-20.5024
 21
79.0432
  0
LINE
  8
0
 10
-20.5024
 20
79.0432
 11
-20.0687
 21
79.0432
  0
LINE
  8
0
 10
-20.0687
 20
79.0432
 11
-6.48681
 21
79.0432
  0
LINE
  8
0
 10
-6.48681
 20
79.0432
 11
-3.81365
 21
79.0432
  0
LINE
  8
0
 10
-3.81365
 20
79.0432
 11
-3.81365
 21
79.0432
  0
LINE
  8
0
 10
-3.81365
 20
79.0432
 11
-3.79654
 21
79.0432
  0
LINE
  8
0
 10
-3.79654
 20
79.0432
 11
-3.51359
 21
79.6091
  0
LINE
  8
0
 10
-3.51359
 20
79.6091
 11
-2.38672
 21
81.8632
  0
LINE
  8
0
 10
-2.38672
 20
81.8632
 11
10.9524
 21
81.8632
  0
LINE
  8
0
 10
10.9524
 20
81.8632
 11
14.2272
 21
81.8632
  0
LINE
  8
0
 10
14.2272
 20
81.8632
 11
17.171
 21
79.6641
  0
LINE
  8
0
 10
17.171
 20
79.6641
 11
18.0022
 21
79.0432
  0
LINE
  8
0
 10
18.0022
 20
79.0432
 11
23.0997
 21
79.0432
  0
LINE
  8
0
 10
23.0997
 20
79.0432
 11
23.4394
 21
78.6172
  0
LINE
  8
0
 10
23.4394
 20
78.6172
 11
25.1134
 21
77.8111
  0
LINE
  8
0
 10
25.1134
 20
77.8111
 11
25.1448
 21
77.7959
  0
LINE
  8
0
 10
25.1448
 20
77.7959
 11
27.0375
 21
77.7959
  0
LINE
  8
0
 10
27.0375
 20
77.7959
 11
27.0689
 21
77.8111
  0
LINE
  8
0
 10
27.0689
 20
77.8111
 11
28.7429
 21
78.6172
  0
LINE
  8
0
 10
28.7429
 20
78.6172
 11
29.0826
 21
79.0432
  0
LINE
  8
0
 10
29.0826
 20
79.0432
 11
31.6479
 21
79.0432
  0
LINE
  8
0
 10
31.6479
 20
79.0432
 11
35.0394
 21
79.0432
  0
LINE
  8
0
 10
35.0394
 20
79.0432
 11
35.8732
 21
76.6902
  0
LINE
  8
0
 10
35.8732
 20
76.6902
 11
39.2922
 21
67.0432
  0
LINE
  8
0
 10
39.2922
 20
67.0432
 11
53.2272
 21
67.0432
  0
LINE
  8
0
 10
53.2272
 20
67.0432
 11
56.6058
 21
67.0432
  0
LINE
  8
0
 10
56.6058
 20
67.0432
 11
59.0949
 21
67.0432
  0
LINE
  8
0
 10
59.0949
 20
67.0432
 11
59.115
 21
67.0432
  0
LINE
  8
0
 10
59.115
 20
67.0432
 11
59.7451
 21
67.0432
  0
LINE
  8
0
 10
59.7451
 20
67.0432
 11
76.9451
 21
67.0432
  0
LINE
  8
0
 10
76.9451
 20
67.0432
 11
78.0428
 21
66.267
  0
LINE
  8
0
 10
78.0428
 20
66.267
 11
81.9451
 21
63.5076
  0
LINE
  8
0
 10
81.9451
 20
63.5076
 11
81.9451
 21
53.9718
  0
LINE
  8
0
 10
81.9451
 20
53.9718
 11
81.9451
 21
51.2958
  0
LINE
  8
0
 10
81.9451
 20
51.2958
 11
81.9451
 21
46.571
  0
LINE
  8
0
 10
81.9451
 20
46.571
 11
81.9451
 21
44.5627
  0
LINE
  8
0
 10
81.9451
 20
44.5627
 11
81.9451
 21
43.2384
  0
LINE
  8
0
 10
81.9451
 20
43.2384
 11
81.0987
 21
43.2384
  0
LINE
  8
0
 10
81.0987
 20
43.2384
 11
81.0673
 21
43.2232
  0
LINE
  8
0
 10
81.0673
 20
43.2232
 11
79.3934
 21
42.4171
  0
LINE
  8
0
 10
79.3934
 20
42.4171
 11
78.235
 21
40.9645
  0
LINE
  8
0
 10
78.235
 20
40.9645
 11
78.2133
 21
40.9373
  0
LINE
  8
0
 10
78.2133
 20
40.9373
 11
78.2055
 21
40.9033
  0
LINE
  8
0
 10
78.2055
 20
40.9033
 11
77.7921
 21
39.092
  0
LINE
  8
0
 10
77.7921
 20
39.092
 11
78.2055
 21
37.2806
  0
LINE
  8
0
 10
78.2055
 20
37.2806
 11
78.2133
 21
37.2467
  0
LINE
  8
0
 10
78.2133
 20
37.2467
 11
78.235
 21
37.2194
  0
LINE
  8
0
 10
78.235
 20
37.2194
 11
79.3934
 21
35.7668
  0
LINE
  8
0
 10
79.3934
 20
35.7668
 11
81.0673
 21
34.9607
  0
LINE
  8
0
 10
81.0673
 20
34.9607
 11
81.0987
 21
34.9456
  0
LINE
  8
0
 10
81.0987
 20
34.9456
 11
81.9451
 21
34.9456
  0
LINE
  8
0
 10
81.9451
 20
34.9456
 11
81.9451
 21
34.8665
  0
LINE
  8
0
 10
81.9451
 20
34.8665
 11
81.9451
 21
34.8452
  0
LINE
  8
0
 10
81.9451
 20
34.8452
 11
81.9451
 21
29.6012
  0
LINE
  8
0
 10
81.9451
 20
29.6012
 11
81.9451
 21
25.7177
  0
LINE
  8
0
 10
81.9451
 20
25.7177
 11
81.9451
 21
21.7565
  0
LINE
  8
0
 10
81.9451
 20
21.7565
 11
81.9451
 21
15.1368
  0
LINE
  8
0
 10
81.9451
 20
15.1368
 11
81.9451
 21
10.4861
  0
LINE
  8
0
 10
81.9451
 20
10.4861
 11
81.5313
 21
5.68946
  0
LINE
  8
0
 10
81.5313
 20
5.68946
 11
81.5313
 21
5.68946
  0
LINE
  8
0
 10
81.5313
 20
5.68946
 11
81.5305
 21
5.68088
  0
LINE
  8
0
 10
81.5305
 20
5.68088
 11
81.5224
 21
5.58594
  0
LINE
  8
0
 10
81.5224
 20
5.58594
 11
81.1687
 21
-2.47209
  0
LINE
  8
0
 10
81.1687
 20
-2.47209
 11
81.1324
 21
-3.3
  0
LINE
  8
0
 10
81.1324
 20
-3.3
 11
81.1324
 21
-20.7
  0
LINE
  8
0
 10
81.1324
 20
-20.7
 11
81.1687
 21
-21.5279
  0
LINE
  8
0
 10
81.1687
 20
-21.5279
 11
81.5224
 21
-29.5859
  0
LINE
  8
0
 10
81.5224
 20
-29.5859
 11
81.5305
 21
-29.6809
  0
LINE
  8
0
 10
81.5305
 20
-29.6809
 11
81.5313
 21
-29.6895
  0
LINE
  8
0
 10
81.5313
 20
-29.6895
 11
81.5313
 21
-29.6895
  0
LINE
  8
0
 10
81.5313
 20
-29.6895
 11
81.9451
 21
-34.4861
  0
LINE
  8
0
 10
81.9451
 20
-34.4861
 11
81.9451
 21
-39.1368
  0
LINE
  8
0
 10
81.9451
 20
-39.1368
 11
81.9451
 21
-45.7188
  0
LINE
  8
0
 10
81.9451
 20
-45.7188
 11
79.1439
 21
-48.4246
  0
LINE
  8
0
 10
79.1439
 20
-48.4246
 11
76.9451
 21
-50.5485
  0
LINE
  8
0
 10
76.9451
 20
-50.5485
 11
59.7451
 21
-50.5485
  0
LINE
  8
0
 10
59.7451
 20
-50.5485
 11
56.5605
 21
-50.5485
  0
LINE
  8
0
 10
56.5605
 20
-50.5485
 11
56.5079
 21
-50.5485
  0
LINE
  8
0
 10
56.5079
 20
-50.5485
 11
53.8257
 21
-50.5485
  0
LINE
  8
0
 10
53.8257
 20
-50.5485
 11
45.1778
 21
-50.5485
  0
LINE
  8
0
 10
45.1778
 20
-50.5485
 11
36.546
 21
-50.5485
  0
LINE
  8
0
 10
36.546
 20
-50.5485
 11
36.3993
 21
-50.9996
  0
LINE
  8
0
 10
36.3993
 20
-50.9996
 11
36.2514
 21
-51.4543
  0
LINE
  8
0
 10
36.2514
 20
-51.4543
 11
36.279
 21
-52.6391
  0
LINE
  8
0
 10
36.279
 20
-52.6391
 11
36.2978
 21
-53.4426
  0
LINE
  8
0
 10
36.2978
 20
-53.4426
 11
36.2987
 21
-53.4828
  0
LINE
  8
0
 10
36.2987
 20
-53.4828
 11
36.2987
 21
-53.4828
  0
LINE
  8
0
 10
36.2987
 20
-53.4828
 11
36.357
 21
-53.4828
  0
LINE
  8
0
 10
36.357
 20
-53.4828
 11
39.4732
 21
-53.4828
  0
LINE
  8
0
 10
39.4732
 20
-53.4828
 11
38.0098
 21
-55.5735
  0
LINE
  8
0
 10
38.0098
 20
-55.5735
 11
34.3028
 21
-60.8699
  0
LINE
  8
0
 10
34.3028
 20
-60.8699
 11
28.1075
 21
-60.8699
  0
LINE
  8
0
 10
28.1075
 20
-60.8699
 11
14.8036
 21
-60.8699
  0
LINE
  8
0
 10
14.8036
 20
-60.8699
 11
10.1545
 21
-61.9766
  0
LINE
  8
0
 10
10.1545
 20
-61.9766
 11
4.50291
 21
-63.322
  0
LINE
  8
0
 10
4.50291
 20
-63.322
 11
4.26448
 21
-63.023
  0
LINE
  8
0
 10
4.26448
 20
-63.023
 11
2.59055
 21
-62.2169
  0
LINE
  8
0
 10
2.59055
 20
-62.2169
 11
2.55915
 21
-62.2018
  0
LINE
  8
0
 10
2.55915
 20
-62.2018
 11
0.666379
 21
-62.2018
  0
LINE
  8
0
 10
0.666379
 20
-62.2018
 11
0.634983
 21
-62.2169
  0
LINE
  8
0
 10
0.634983
 20
-62.2169
 11
-1.03895
 21
-63.023
  0
LINE
  8
0
 10
-1.03895
 20
-63.023
 11
-2.19735
 21
-64.4756
  0
LINE
  8
0
 10
-2.19735
 20
-64.4756
 11
-2.21907
 21
-64.5028
  0
LINE
  8
0
 10
-2.21907
 20
-64.5028
 11
-2.22683
 21
-64.5368
  0
LINE
  8
0
 10
-2.22683
 20
-64.5368
 11
-2.60334
 21
-66.1864
  0
LINE
  8
0
 10
-2.60334
 20
-66.1864
 11
-9.1144
 21
-70.4177
  0
LINE
  8
0
 10
-9.1144
 20
-70.4177
 11
-13.505
 21
-73.271
  0
LINE
  8
0
 10
-13.505
 20
-73.271
 11
-14.3789
 21
-73.9381
  0
LINE
  8
0
 10
-14.3789
 20
-73.9381
 11
-15.0793
 21
-74.4727
  0
LINE
  8
0
 10
-15.0793
 20
-74.4727
 11
-15.1013
 21
-74.4971
  0
LINE
  8
0
 10
-15.1013
 20
-74.4971
 11
-20.9019
 21
-80.9393
  0
LINE
  8
0
 10
-20.9019
 20
-80.9393
 11
-24.7116
 21
-85.1704
  0
LINE
  8
0
 10
-24.7116
 20
-85.1704
 11
-24.7116
 21
-85.1704
  0
LINE
  8
0
 10
-24.7116
 20
-85.1704
 11
-24.7317
 21
-85.1928
  0
LINE
  8
0
 10
-24.7317
 20
-85.1928
 11
-24.3641
 21
-86.899
  0
LINE
  8
0
 10
-24.3641
 20
-86.899
 11
-23.7191
 21
-89.8924
  0
LINE
  8
0
 10
-23.7191
 20
-89.8924
 11
-26.2886
 21
-93.4289
  0
LINE
  8
0
 10
-26.2886
 20
-93.4289
 11
-31.3702
 21
-96.7955
  0
LINE
  8
0
 10
-31.3702
 20
-96.7955
 11
-37.6595
 21
-100.962
  0
LINE
  8
0
 10
-37.6595
 20
-100.962
 11
-40.2943
 21
-100.998
  0
LINE
  8
0
 10
-40.2943
 20
-100.998
 11
-43.0402
 21
-98.5952
  0
LINE
  8
0
 10
-43.0402
 20
-98.5952
 11
-53.4398
 21
-89.4969
  0
LINE
  8
0
 10
-53.4398
 20
-89.4969
 11
-53.6453
 21
-89.3476
  0
LINE
  8
0
 10
-53.6453
 20
-89.3476
 11
-53.7278
 21
-89.2877
  0
LINE
  8
0
 10
-53.7278
 20
-89.2877
 11
-53.7925
 21
-89.2487
  0
LINE
  8
0
 10
-53.7925
 20
-89.2487
 11
-58.7212
 21
-87.8157
  0
LINE
  8
0
 10
-58.7212
 20
-87.8157
 11
-69.274
 21
-79.1725
  0
LINE
  8
0
 10
-69.274
 20
-79.1725
 11
-72.0513
 21
-76.8977
  0
LINE
  8
0
 10
-72.0513
 20
-76.8977
 11
-72.2122
 21
-75.2371
  0
LINE
  8
0
 10
-65.0232
 20
-8.65
 11
-65.0232
 21
8.65
  0
LINE
  8
0
 10
-65.0232
 20
8.65
 11
-64.8189
 21
12.3224
  0
LINE
  8
0
 10
-64.8189
 20
12.3224
 11
-64.7193
 21
14.1113
  0
LINE
  8
0
 10
-64.7193
 20
14.1113
 11
-63.8003
 21
22.2274
  0
LINE
  8
0
 10
-63.8003
 20
22.2274
 11
-63.8003
 21
-22.2274
  0
LINE
  8
0
 10
-63.8003
 20
-22.2274
 11
-64.7193
 21
-14.1113
  0
LINE
  8
0
 10
-64.7193
 20
-14.1113
 11
-64.8189
 21
-12.3224
  0
LINE
  8
0
 10
-64.8189
 20
-12.3224
 11
-65.0232
 21
-8.65
  0
LINE
  8
0
 10
-63.8368
 20
-43.592
 11
-62.9868
 21
-42.1197
  0
LINE
  8
0
 10
-62.9868
 20
-42.1197
 11
-61.2868
 21
-42.1197
  0
LINE
  8
0
 10
-61.2868
 20
-42.1197
 11
-60.4368
 21
-43.592
  0
LINE
  8
0
 10
-60.4368
 20
-43.592
 11
-61.2868
 21
-45.0642
  0
LINE
  8
0
 10
-61.2868
 20
-45.0642
 11
-62.9868
 21
-45.0642
  0
LINE
  8
0
 10
-62.9868
 20
-45.0642
 11
-63.8368
 21
-43.592
  0
LINE
  8
0
 10
-57.9814
 20
61.6484
 11
-57.1314
 21
63.1206
  0
LINE
  8
0
 10
-57.1314
 20
63.1206
 11
-55.4314
 21
63.1206
  0
LINE
  8
0
 10
-55.4314
 20
63.1206
 11
-54.5814
 21
61.6484
  0
LINE
  8
0
 10
-54.5814
 20
61.6484
 11
-55.4314
 21
60.1761
  0
LINE
  8
0
 10
-55.4314
 20
60.1761
 11
-57.1314
 21
60.1761
  0
LINE
  8
0
 10
-57.1314
 20
60.1761
 11
-57.9814
 21
61.6484
  0
LINE
  8
0
 10
-0.0872352
 20
-66.3481
 11
0.762765
 21
-64.8759
  0
LINE
  8
0
 10
0.762765
 20
-64.8759
 11
2.46276
 21
-64.8759
  0
LINE
  8
0
 10
2.46276
 20
-64.8759
 11
3.31276
 21
-66.3481
  0
LINE
  8
0
 10
3.31276
 20
-66.3481
 11
2.46276
 21
-67.8204
  0
LINE
  8
0
 10
2.46276
 20
-67.8204
 11
0.762765
 21
-67.8204
  0
LINE
  8
0
 10
0.762765
 20
-67.8204
 11
-0.0872352
 21
-66.3481
  0
LINE
  8
0
 10
24.3912
 20
81.9423
 11
25.2412
 21
83.4146
  0
LINE
  8
0
 10
25.2412
 20
83.4146
 11
26.9412
 21
83.4146
  0
LINE
  8
0
 10
26.9412
 20
83.4146
 11
27.7912
 21
81.9423
  0
LINE
  8
0
 10
27.7912
 20
81.9423
 11
26.9412
 21
80.4701
  0
LINE
  8
0
 10
26.9412
 20
80.4701
 11
25.2412
 21
80.4701
  0
LINE
  8
0
 10
25.2412
 20
80.4701
 11
24.3912
 21
81.9423
  0
LINE
  8
0
 10
80.3451
 20
39.092
 11
81.1951
 21
40.5642
  0
LINE
  8
0
 10
81.1951
 20
40.5642
 11
82.8951
 21
40.5642
  0
LINE
  8
0
 10
82.8951
 20
40.5642
 11
83.7451
 21
39.092
  0
LINE
  8
0
 10
83.7451
 20
39.092
 11
82.8951
 21
37.6197
  0
LINE
  8
0
 10
82.8951
 20
37.6197
 11
81.1951
 21
37.6197
  0
LINE
  8
0
 10
81.1951
 20
37.6197
 11
80.3451
 21
39.092
  0
ENDSEC
  0
SECTION
  2
OBJECTS
  0
DICTIONARY
  0
ENDSEC
  0
EOF
